ISO-10303-21;
HEADER;
FILE_DESCRIPTION (( 'STEP AP203' ),
    '1' );
FILE_NAME ('B270-RNDF-25.4-0.1.STEP',
    '2021-01-05T01:22:48',
    ( '' ),
    ( '' ),
    'SwSTEP 2.0',
    'SolidWorks 2020',
    '' );
FILE_SCHEMA (( 'CONFIG_CONTROL_DESIGN' ));
ENDSEC;

DATA;
#1 = AXIS2_PLACEMENT_3D ( 'NONE', #4, #43, #149 ) ;
#2 = PERSON_AND_ORGANIZATION ( #116, #97 ) ;
#3 = APPLICATION_PROTOCOL_DEFINITION ( 'international standard', 'config_control_design', 1994, #52 ) ;
#4 = CARTESIAN_POINT ( 'NONE',  ( 0.000000000000000000, 0.000000000000000000, 0.000000000000000000 ) ) ;
#5 = DIRECTION ( 'NONE',  ( -1.000000000000000000, -0.000000000000000000, -0.000000000000000000 ) ) ;
#6 = PERSON_AND_ORGANIZATION ( #116, #97 ) ;
#7 = EDGE_LOOP ( 'NONE', ( #142, #20, #114, #127 ) ) ;
#8 = CARTESIAN_POINT ( 'NONE',  ( 0.000000000000000000, 0.000000000000000000, 0.000000000000000000 ) ) ;
#9 = LOCAL_TIME ( 9, 22, 48.00000000000000000, #40 ) ;
#10 = FACE_OUTER_BOUND ( 'NONE', #113, .T. ) ;
#11 = AXIS2_PLACEMENT_3D ( 'NONE', #21, #155, #55 ) ;
#12 = EDGE_CURVE ( 'NONE', #117, #37, #65, .T. ) ;
#13 = CC_DESIGN_DATE_AND_TIME_ASSIGNMENT ( #49, #137, ( #14 ) ) ;
#14 = SECURITY_CLASSIFICATION ( '', '', #160 ) ;
#15 = PERSON_AND_ORGANIZATION ( #116, #97 ) ;
#16 = CALENDAR_DATE ( 2021, 5, 1 ) ;
#17 = DATE_AND_TIME ( #139, #67 ) ;
#18 = VECTOR ( 'NONE', #128, 1000.000000000000000 ) ;
#19 = ORIENTED_EDGE ( 'NONE', *, *, #79, .F. ) ;
#20 = ORIENTED_EDGE ( 'NONE', *, *, #58, .T. ) ;
#21 = CARTESIAN_POINT ( 'NONE',  ( 1.999999999999998224, 0.000000000000000000, 0.000000000000000000 ) ) ;
#22 = PLANE ( 'NONE',  #163 ) ;
#23 = PERSON_AND_ORGANIZATION_ROLE ( 'creator' ) ;
#24 = DIRECTION ( 'NONE',  ( 0.000000000000000000, 0.000000000000000000, 1.000000000000000000 ) ) ;
#25 = PRODUCT ( 'B270-RNDF-25.4-0.1', 'B270-RNDF-25.4-0.1', '', ( #54 ) ) ;
#26 = CC_DESIGN_APPROVAL ( #41, ( #14 ) ) ;
#27 = CC_DESIGN_PERSON_AND_ORGANIZATION_ASSIGNMENT ( #150, #61, ( #14 ) ) ;
#28 = EDGE_CURVE ( 'NONE', #37, #117, #68, .T. ) ;
#29 = COORDINATED_UNIVERSAL_TIME_OFFSET ( 8, 0, .AHEAD. ) ;
#30 = LOCAL_TIME ( 9, 22, 48.00000000000000000, #42 ) ;
#31 = PERSON_AND_ORGANIZATION_ROLE ( 'design_supplier' ) ;
#32 = ADVANCED_FACE ( 'NONE', ( #169 ), #44, .T. ) ;
#33 =( LENGTH_UNIT ( ) NAMED_UNIT ( * ) SI_UNIT ( .MILLI., .METRE. ) );
#34 = EDGE_LOOP ( 'NONE', ( #59, #73, #47, #129 ) ) ;
#35 = LINE ( 'NONE', #115, #18 ) ;
#36 = DIRECTION ( 'NONE',  ( 0.000000000000000000, 0.000000000000000000, 1.000000000000000000 ) ) ;
#37 = VERTEX_POINT ( 'NONE', #46 ) ;
#38 = CARTESIAN_POINT ( 'NONE',  ( -1.187907395172932594E-15, 1.555301434917138433E-15, -12.69999999999999929 ) ) ;
#39 = AXIS2_PLACEMENT_3D ( 'NONE', #159, #87, #170 ) ;
#40 = COORDINATED_UNIVERSAL_TIME_OFFSET ( 8, 0, .AHEAD. ) ;
#41 = APPROVAL ( #96, 'UNSPECIFIED' ) ;
#42 = COORDINATED_UNIVERSAL_TIME_OFFSET ( 8, 0, .AHEAD. ) ;
#43 = DIRECTION ( 'NONE',  ( 0.000000000000000000, 0.000000000000000000, 1.000000000000000000 ) ) ;
#44 = CYLINDRICAL_SURFACE ( 'NONE', #72, 12.69999999999999929 ) ;
#45 = AXIS2_PLACEMENT_3D ( 'NONE', #98, #88, #86 ) ;
#46 = CARTESIAN_POINT ( 'NONE',  ( -1.187907395172932594E-15, 0.000000000000000000, 12.69999999999999929 ) ) ;
#47 = ORIENTED_EDGE ( 'NONE', *, *, #158, .T. ) ;
#48 = DIRECTION ( 'NONE',  ( -1.000000000000000000, -0.000000000000000000, -0.000000000000000000 ) ) ;
#49 = DATE_AND_TIME ( #84, #30 ) ;
#50 = ADVANCED_FACE ( 'NONE', ( #10 ), #100, .F. ) ;
#51 = CC_DESIGN_PERSON_AND_ORGANIZATION_ASSIGNMENT ( #71, #31, ( #82 ) ) ;
#52 = APPLICATION_CONTEXT ( 'configuration controlled 3d designs of mechanical parts and assemblies' ) ;
#53 = APPROVAL_ROLE ( '' ) ;
#54 = MECHANICAL_CONTEXT ( 'NONE', #52, 'mechanical' ) ;
#55 = DIRECTION ( 'NONE',  ( 0.000000000000000000, 0.000000000000000000, 1.000000000000000000 ) ) ;
#56 = APPROVAL_DATE_TIME ( #17, #41 ) ;
#57 = DIRECTION ( 'NONE',  ( 0.000000000000000000, 0.000000000000000000, 1.000000000000000000 ) ) ;
#58 = EDGE_CURVE ( 'NONE', #157, #117, #171, .T. ) ;
#59 = ORIENTED_EDGE ( 'NONE', *, *, #58, .F. ) ;
#60 = CARTESIAN_POINT ( 'NONE',  ( 0.000000000000000000, 1.555301434917138433E-15, -12.69999999999999929 ) ) ;
#61 = PERSON_AND_ORGANIZATION_ROLE ( 'classification_officer' ) ;
#62 = APPROVAL_PERSON_ORGANIZATION ( #15, #85, #53 ) ;
#63 = CARTESIAN_POINT ( 'NONE',  ( 1.999999999999999112, 12.69999999999999929, 0.000000000000000000 ) ) ;
#64 = ADVANCED_FACE ( 'NONE', ( #147 ), #22, .F. ) ;
#65 = CIRCLE ( 'NONE', #45, 12.69999999999999929 ) ;
#66 = CC_DESIGN_DATE_AND_TIME_ASSIGNMENT ( #70, #81, ( #146 ) ) ;
#67 = LOCAL_TIME ( 9, 22, 48.00000000000000000, #153 ) ;
#68 = CIRCLE ( 'NONE', #174, 12.69999999999999929 ) ;
#69 = APPROVAL_STATUS ( 'not_yet_approved' ) ;
#70 = DATE_AND_TIME ( #16, #103 ) ;
#71 = PERSON_AND_ORGANIZATION ( #116, #97 ) ;
#72 = AXIS2_PLACEMENT_3D ( 'NONE', #8, #76, #24 ) ;
#73 = ORIENTED_EDGE ( 'NONE', *, *, #175, .T. ) ;
#74 = CARTESIAN_POINT ( 'NONE',  ( 1.999999999999998224, 1.555301434917138433E-15, -12.69999999999999929 ) ) ;
#75 = ORIENTED_EDGE ( 'NONE', *, *, #28, .T. ) ;
#76 = DIRECTION ( 'NONE',  ( -1.000000000000000000, -0.000000000000000000, -0.000000000000000000 ) ) ;
#77 = CARTESIAN_POINT ( 'NONE',  ( 1.999999999999998224, 0.000000000000000000, 0.000000000000000000 ) ) ;
#78 = CC_DESIGN_PERSON_AND_ORGANIZATION_ASSIGNMENT ( #95, #23, ( #82 ) ) ;
#79 = EDGE_CURVE ( 'NONE', #101, #157, #104, .T. ) ;
#80 = ADVANCED_FACE ( 'NONE', ( #131 ), #130, .T. ) ;
#81 = DATE_TIME_ROLE ( 'creation_date' ) ;
#82 = PRODUCT_DEFINITION_FORMATION_WITH_SPECIFIED_SOURCE ( 'ANY', '', #25, .NOT_KNOWN. ) ;
#83 = PERSON_AND_ORGANIZATION ( #116, #97 ) ;
#84 = CALENDAR_DATE ( 2021, 5, 1 ) ;
#85 = APPROVAL ( #69, 'UNSPECIFIED' ) ;
#86 = DIRECTION ( 'NONE',  ( 0.000000000000000000, 0.000000000000000000, 1.000000000000000000 ) ) ;
#87 = DIRECTION ( 'NONE',  ( -1.000000000000000000, -0.000000000000000000, -0.000000000000000000 ) ) ;
#88 = DIRECTION ( 'NONE',  ( -1.000000000000000000, -0.000000000000000000, -0.000000000000000000 ) ) ;
#89 = DIRECTION ( 'NONE',  ( 1.000000000000000000, 0.000000000000000000, 0.000000000000000000 ) ) ;
#90 = UNCERTAINTY_MEASURE_WITH_UNIT (LENGTH_MEASURE( 1.000000000000000082E-05 ), #33, 'distance_accuracy_value', 'NONE');
#91 = LOCAL_TIME ( 9, 22, 48.00000000000000000, #109 ) ;
#92 = AXIS2_PLACEMENT_3D ( 'NONE', #144, #89, #156 ) ;
#93 = PERSON_AND_ORGANIZATION ( #116, #97 ) ;
#94 = CC_DESIGN_APPROVAL ( #108, ( #146 ) ) ;
#95 = PERSON_AND_ORGANIZATION ( #116, #97 ) ;
#96 = APPROVAL_STATUS ( 'not_yet_approved' ) ;
#97 = ORGANIZATION ( 'UNSPECIFIED', 'UNSPECIFIED', '' ) ;
#98 = CARTESIAN_POINT ( 'NONE',  ( -1.187907395172932594E-15, 0.000000000000000000, 0.000000000000000000 ) ) ;
#99 = DATE_AND_TIME ( #141, #91 ) ;
#100 = PLANE ( 'NONE',  #92 ) ;
#101 = VERTEX_POINT ( 'NONE', #118 ) ;
#102 = DIRECTION ( 'NONE',  ( -1.000000000000000000, 0.000000000000000000, -0.000000000000000000 ) ) ;
#103 = LOCAL_TIME ( 9, 22, 48.00000000000000000, #29 ) ;
#104 = CIRCLE ( 'NONE', #123, 12.69999999999999929 ) ;
#105 = MANIFOLD_SOLID_BREP ( 'Ðý×', #121 ) ;
#106 = APPROVAL_DATE_TIME ( #125, #108 ) ;
#107 = APPLICATION_CONTEXT ( 'configuration controlled 3d designs of mechanical parts and assemblies' ) ;
#108 = APPROVAL ( #126, 'UNSPECIFIED' ) ;
#109 = COORDINATED_UNIVERSAL_TIME_OFFSET ( 8, 0, .AHEAD. ) ;
#110 = CALENDAR_DATE ( 2021, 5, 1 ) ;
#111 = SHAPE_DEFINITION_REPRESENTATION ( #172, #161 ) ;
#112 =( NAMED_UNIT ( * ) PLANE_ANGLE_UNIT ( ) SI_UNIT ( $, .RADIAN. ) );
#113 = EDGE_LOOP ( 'NONE', ( #75, #166 ) ) ;
#114 = ORIENTED_EDGE ( 'NONE', *, *, #28, .F. ) ;
#115 = CARTESIAN_POINT ( 'NONE',  ( 0.000000000000000000, 0.000000000000000000, 12.69999999999999929 ) ) ;
#116 = PERSON ( 'UNSPECIFIED', 'UNSPECIFIED', 'UNSPECIFIED', ('UNSPECIFIED'), ('UNSPECIFIED'), ('UNSPECIFIED') ) ;
#117 = VERTEX_POINT ( 'NONE', #38 ) ;
#118 = CARTESIAN_POINT ( 'NONE',  ( 1.999999999999998224, 0.000000000000000000, 12.69999999999999929 ) ) ;
#119 = APPROVAL_PERSON_ORGANIZATION ( #6, #41, #168 ) ;
#120 = DIRECTION ( 'NONE',  ( -0.000000000000000000, 0.000000000000000000, 1.000000000000000000 ) ) ;
#121 = CLOSED_SHELL ( 'NONE', ( #80, #32, #64, #50 ) ) ;
#122 = CC_DESIGN_SECURITY_CLASSIFICATION ( #14, ( #82 ) ) ;
#123 = AXIS2_PLACEMENT_3D ( 'NONE', #77, #173, #36 ) ;
#124 = CC_DESIGN_PERSON_AND_ORGANIZATION_ASSIGNMENT ( #93, #136, ( #25 ) ) ;
#125 = DATE_AND_TIME ( #110, #9 ) ;
#126 = APPROVAL_STATUS ( 'not_yet_approved' ) ;
#127 = ORIENTED_EDGE ( 'NONE', *, *, #158, .F. ) ;
#128 = DIRECTION ( 'NONE',  ( -1.000000000000000000, -0.000000000000000000, -0.000000000000000000 ) ) ;
#129 = ORIENTED_EDGE ( 'NONE', *, *, #12, .F. ) ;
#130 = CYLINDRICAL_SURFACE ( 'NONE', #39, 12.69999999999999929 ) ;
#131 = FACE_OUTER_BOUND ( 'NONE', #7, .T. ) ;
#132 = CC_DESIGN_PERSON_AND_ORGANIZATION_ASSIGNMENT ( #2, #164, ( #146 ) ) ;
#133 = PRODUCT_RELATED_PRODUCT_CATEGORY ( 'detail', '', ( #25 ) ) ;
#134 = VECTOR ( 'NONE', #48, 1000.000000000000000 ) ;
#135 = DESIGN_CONTEXT ( 'detailed design', #107, 'design' ) ;
#136 = PERSON_AND_ORGANIZATION_ROLE ( 'design_owner' ) ;
#137 = DATE_TIME_ROLE ( 'classification_date' ) ;
#138 = CIRCLE ( 'NONE', #11, 12.69999999999999929 ) ;
#139 = CALENDAR_DATE ( 2021, 5, 1 ) ;
#140 = ORIENTED_EDGE ( 'NONE', *, *, #175, .F. ) ;
#141 = CALENDAR_DATE ( 2021, 5, 1 ) ;
#142 = ORIENTED_EDGE ( 'NONE', *, *, #79, .T. ) ;
#143 = APPROVAL_DATE_TIME ( #99, #85 ) ;
#144 = CARTESIAN_POINT ( 'NONE',  ( -5.939536975864662969E-16, 12.69999999999999929, 0.000000000000000000 ) ) ;
#145 = CARTESIAN_POINT ( 'NONE',  ( -1.187907395172932594E-15, 0.000000000000000000, 0.000000000000000000 ) ) ;
#146 = PRODUCT_DEFINITION ( 'UNKNOWN', '', #82, #135 ) ;
#147 = FACE_OUTER_BOUND ( 'NONE', #154, .T. ) ;
#148 = APPROVAL_ROLE ( '' ) ;
#149 = DIRECTION ( 'NONE',  ( 1.000000000000000000, 0.000000000000000000, 0.000000000000000000 ) ) ;
#150 = PERSON_AND_ORGANIZATION ( #116, #97 ) ;
#151 =( NAMED_UNIT ( * ) SI_UNIT ( $, .STERADIAN. ) SOLID_ANGLE_UNIT ( ) );
#152 =( GEOMETRIC_REPRESENTATION_CONTEXT ( 3 ) GLOBAL_UNCERTAINTY_ASSIGNED_CONTEXT ( ( #90 ) ) GLOBAL_UNIT_ASSIGNED_CONTEXT ( ( #33, #112, #151 ) ) REPRESENTATION_CONTEXT ( 'NONE', 'WORKASPACE' ) );
#153 = COORDINATED_UNIVERSAL_TIME_OFFSET ( 8, 0, .AHEAD. ) ;
#154 = EDGE_LOOP ( 'NONE', ( #19, #140 ) ) ;
#155 = DIRECTION ( 'NONE',  ( -1.000000000000000000, -0.000000000000000000, -0.000000000000000000 ) ) ;
#156 = DIRECTION ( 'NONE',  ( 0.000000000000000000, 0.000000000000000000, -1.000000000000000000 ) ) ;
#157 = VERTEX_POINT ( 'NONE', #74 ) ;
#158 = EDGE_CURVE ( 'NONE', #101, #37, #35, .T. ) ;
#159 = CARTESIAN_POINT ( 'NONE',  ( 0.000000000000000000, 0.000000000000000000, 0.000000000000000000 ) ) ;
#160 = SECURITY_CLASSIFICATION_LEVEL ( 'unclassified' ) ;
#161 = ADVANCED_BREP_SHAPE_REPRESENTATION ( 'B270-RNDF-25.4-0.1', ( #105, #1 ), #152 ) ;
#162 = CC_DESIGN_APPROVAL ( #85, ( #82 ) ) ;
#163 = AXIS2_PLACEMENT_3D ( 'NONE', #63, #102, #120 ) ;
#164 = PERSON_AND_ORGANIZATION_ROLE ( 'creator' ) ;
#165 = APPLICATION_PROTOCOL_DEFINITION ( 'international standard', 'config_control_design', 1994, #107 ) ;
#166 = ORIENTED_EDGE ( 'NONE', *, *, #12, .T. ) ;
#167 = APPROVAL_PERSON_ORGANIZATION ( #83, #108, #148 ) ;
#168 = APPROVAL_ROLE ( '' ) ;
#169 = FACE_OUTER_BOUND ( 'NONE', #34, .T. ) ;
#170 = DIRECTION ( 'NONE',  ( 0.000000000000000000, 0.000000000000000000, 1.000000000000000000 ) ) ;
#171 = LINE ( 'NONE', #60, #134 ) ;
#172 = PRODUCT_DEFINITION_SHAPE ( 'NONE', 'NONE',  #146 ) ;
#173 = DIRECTION ( 'NONE',  ( -1.000000000000000000, -0.000000000000000000, -0.000000000000000000 ) ) ;
#174 = AXIS2_PLACEMENT_3D ( 'NONE', #145, #5, #57 ) ;
#175 = EDGE_CURVE ( 'NONE', #157, #101, #138, .T. ) ;
ENDSEC;
END-ISO-10303-21;
